0
SECTION
2
HEADER
9
$INSUNITS
70
4
9
$ACADVER
1
AC1014
9
$HANDSEED
5
FFFF
0
ENDSEC
0
SECTION
2
TABLES
0
TABLE
2
VPORT
5
8
100
AcDbSymbolTable
0
ENDTAB
0
TABLE
2
LTYPE
5
5
100
AcDbSymbolTable
0
LTYPE
5
14
100
AcDbSymbolTableRecord
100
AcDbLinetypeTableRecord
2
BYBLOCK
70
0
0
LTYPE
5
15
100
AcDbSymbolTableRecord
100
AcDbLinetypeTableRecord
2
BYLAYER
70
0
0
LTYPE
5
16
100
AcDbSymbolTableRecord
100
AcDbLinetypeTableRecord
2
DASHED
70
0
3
Dashed __ __ __ __ __ __ __ __ __ __ __ __ __ _
72
65
73
2
40
0.75
49
0.5
74
0
49
-0.25
74
0
0
ENDTAB
0
TABLE
2
LAYER
5
2
100
AcDbSymbolTable
70
2
0
LAYER
5
50
100
AcDbSymbolTableRecord
100
AcDbLayerTableRecord
2
0
70
0
62
7
6
CONTINUOUS
0
ENDTAB
0
TABLE
2
STYLE
5
3
100
AcDbSymbolTable
70
1
0
STYLE
5
11
100
AcDbSymbolTableRecord
100
AcDbTextStyleTableRecord
2
STANDARD
70
0
0
ENDTAB
0
TABLE
2
VIEW
5
6
100
AcDbSymbolTable
70
0
0
ENDTAB
0
TABLE
2
UCS
5
7
100
AcDbSymbolTable
70
0
0
ENDTAB
0
TABLE
2
APPID
5
9
100
AcDbSymbolTable
70
2
0
APPID
5
12
100
AcDbSymbolTableRecord
100
AcDbRegAppTableRecord
2
ACAD
70
0
0
ENDTAB
0
TABLE
2
DIMSTYLE
5
A
100
AcDbSymbolTable
70
1
0
ENDTAB
0
TABLE
2
BLOCK_RECORD
5
1
100
AcDbSymbolTable
70
1
0
BLOCK_RECORD
5
1F
100
AcDbSymbolTableRecord
100
AcDbBlockTableRecord
2
*MODEL_SPACE
0
BLOCK_RECORD
5
1B
100
AcDbSymbolTableRecord
100
AcDbBlockTableRecord
2
*PAPER_SPACE
0
ENDTAB
0
ENDSEC
0
SECTION
2
BLOCKS
0
BLOCK
5
20
100
AcDbEntity
100
AcDbBlockBegin
2
*MODEL_SPACE
0
ENDBLK
5
21
100
AcDbEntity
100
AcDbBlockEnd
0
BLOCK
5
1C
100
AcDbEntity
100
AcDbBlockBegin
2
*PAPER_SPACE
0
ENDBLK
5
1D
100
AcDbEntity
100
AcDbBlockEnd
0
ENDSEC
0
SECTION
2
ENTITIES
0
POINT
5
100
100
AcDbEntity
8
0
100
AcDbPoint
10
-20.999999999999961
20
9.3999999999915929
30
0
0
POINT
5
101
100
AcDbEntity
8
0
100
AcDbPoint
10
20.999999999999588
20
266.1099999999916
30
0
0
POINT
5
102
100
AcDbEntity
8
0
100
AcDbPoint
10
-20.999999999999819
20
266.1099999999916
30
0
0
LINE
5
103
100
AcDbEntity
8
0
100
AcDbLine
10
31.999999999999869
20
266.60999999999189
30
0
11
31.999999999999904
21
-266.61000000000809
31
0
0
CIRCLE
5
104
100
AcDbEntity
8
0
100
AcDbCircle
10
20.99999999999973
20
9.3999999999915929
30
0
40
4
210
-0
220
0
230
1
0
CIRCLE
5
105
100
AcDbEntity
8
0
100
AcDbCircle
10
-1.1220800063731552e-13
20
31.279999999991958
30
0
40
16
210
-0
220
0
230
1
0
CIRCLE
5
106
100
AcDbEntity
8
0
100
AcDbCircle
10
-20.999999999999961
20
9.3999999999915929
30
0
40
4
210
-0
220
0
230
1
0
LINE
5
107
100
AcDbEntity
8
0
100
AcDbLine
10
-32.000000000000135
20
266.60999999999183
30
0
11
-32.000000000000128
21
-266.61000000000809
31
0
0
CIRCLE
5
108
100
AcDbEntity
8
0
100
AcDbCircle
10
-1.1220800063731552e-13
20
121.55999999999194
30
0
40
16
210
-0
220
0
230
1
0
CIRCLE
5
109
100
AcDbEntity
8
0
100
AcDbCircle
10
-1.1220800063731552e-13
20
211.83999999999196
30
0
40
16
210
-0
220
0
230
1
0
LINE
5
110
100
AcDbEntity
8
0
100
AcDbLine
10
21.999999999999858
20
276.60999999999183
30
0
11
-22.000000000000092
21
276.60999999999189
31
0
0
ARC
5
111
100
AcDbEntity
8
0
100
AcDbCircle
10
-22.000000000000099
20
266.60999999999183
30
0
40
10.000000000000036
210
0
220
-0
230
1
100
AcDbArc
50
89.999999999999972
51
180
0
ARC
5
112
100
AcDbEntity
8
0
100
AcDbCircle
10
21.999999999999854
20
266.60999999999183
30
0
40
10.000000000000009
210
0
220
-0
230
1
100
AcDbArc
50
0
51
89.999999999999986
0
CIRCLE
5
113
100
AcDbEntity
8
0
100
AcDbCircle
10
20.999999999999588
20
266.1099999999916
30
0
40
4
210
-0
220
0
230
1
0
CIRCLE
5
114
100
AcDbEntity
8
0
100
AcDbCircle
10
-20.999999999999819
20
266.1099999999916
30
0
40
4
210
-0
220
0
230
1
0
CIRCLE
5
115
100
AcDbEntity
8
0
100
AcDbCircle
10
-1.1220800063731552e-13
20
-59.000000000008072
30
0
40
16
210
-0
220
0
230
1
0
CIRCLE
5
116
100
AcDbEntity
8
0
100
AcDbCircle
10
-1.1220800063731552e-13
20
-149.28000000000807
30
0
40
16
210
-0
220
0
230
1
0
CIRCLE
5
117
100
AcDbEntity
8
0
100
AcDbCircle
10
-1.1220800063731552e-13
20
-239.56000000000807
30
0
40
16
210
-0
220
0
230
1
0
LINE
5
118
100
AcDbEntity
8
0
100
AcDbLine
10
21.999999999999904
20
-276.61000000000843
30
0
11
-22.000000000000128
21
-276.61000000000809
31
0
0
ARC
5
119
100
AcDbEntity
8
0
100
AcDbCircle
10
-22.000000000000128
20
-266.61000000000809
30
0
40
10.000000000000004
210
0
220
0
230
1
100
AcDbArc
50
180
51
270
0
ARC
5
120
100
AcDbEntity
8
0
100
AcDbCircle
10
21.999999999999904
20
-266.61000000000809
30
0
40
10.00000000000032
210
-0
220
0
230
1
100
AcDbArc
50
-90
51
0
0
CIRCLE
5
121
100
AcDbEntity
8
0
100
AcDbCircle
10
20.999999999999886
20
-266.11000000000843
30
0
40
4
210
-0
220
0
230
1
0
CIRCLE
5
122
100
AcDbEntity
8
0
100
AcDbCircle
10
-21.000000000000117
20
-266.11000000000843
30
0
40
4
210
-0
220
0
230
1
0
ENDSEC
0
SECTION
2
OBJECTS
0
DICTIONARY
5
C
100
AcDbDictionary
3
ACAD_GROUP
350
D
3
ACAD_MLINESTYLE
350
17
0
DICTIONARY
5
D
100
AcDbDictionary
0
DICTIONARY
5
1A
330
C
100
AcDbDictionary
0
DICTIONARY
5
17
100
AcDbDictionary
0
ENDSEC
0
EOF
